ISO-10303-21;
HEADER;
FILE_DESCRIPTION (( 'STEP AP203' ),
    '1' );
FILE_NAME ('BK7-LPBSC-12.7-532.STEP',
    '2020-12-22T03:11:43',
    ( '' ),
    ( '' ),
    'SwSTEP 2.0',
    'SolidWorks 2020',
    '' );
FILE_SCHEMA (( 'CONFIG_CONTROL_DESIGN' ));
ENDSEC;

DATA;
#1 = SHAPE_DEFINITION_REPRESENTATION ( #149, #210 ) ;
#2 = EDGE_CURVE ( 'NONE', #188, #31, #70, .T. ) ;
#3 = LOCAL_TIME ( 11, 11, 43.00000000000000000, #304 ) ;
#4 = LINE ( 'NONE', #298, #90 ) ;
#5 = EDGE_LOOP ( 'NONE', ( #229, #97, #139, #255 ) ) ;
#6 = EDGE_CURVE ( 'NONE', #302, #188, #258, .T. ) ;
#7 = EDGE_LOOP ( 'NONE', ( #194, #118, #14 ) ) ;
#8 = DATE_TIME_ROLE ( 'creation_date' ) ;
#9 = PERSON_AND_ORGANIZATION ( #321, #259 ) ;
#10 = EDGE_LOOP ( 'NONE', ( #33, #159, #260 ) ) ;
#11 = EDGE_CURVE ( 'NONE', #234, #96, #119, .T. ) ;
#12 = PERSON_AND_ORGANIZATION ( #321, #259 ) ;
#13 = ORIENTED_EDGE ( 'NONE', *, *, #293, .T. ) ;
#14 = ORIENTED_EDGE ( 'NONE', *, *, #28, .F. ) ;
#15 = APPLICATION_CONTEXT ( 'configuration controlled 3d designs of mechanical parts and assemblies' ) ;
#16 = FACE_OUTER_BOUND ( 'NONE', #193, .T. ) ;
#17 = DIRECTION ( 'NONE',  ( 0.7071067811865474617, 0.7071067811865474617, 0.000000000000000000 ) ) ;
#18 = AXIS2_PLACEMENT_3D ( 'NONE', #239, #145, #128 ) ;
#19 = CC_DESIGN_SECURITY_CLASSIFICATION ( #104, ( #308 ) ) ;
#20 = PERSON_AND_ORGANIZATION ( #321, #259 ) ;
#21 = CARTESIAN_POINT ( 'NONE',  ( 6.349999999999998757, 6.349999999999998757, -6.349999999999999645 ) ) ;
#22 = FACE_OUTER_BOUND ( 'NONE', #288, .T. ) ;
#23 = DIRECTION ( 'NONE',  ( -0.000000000000000000, 0.000000000000000000, 1.000000000000000000 ) ) ;
#24 = DIRECTION ( 'NONE',  ( 1.000000000000000000, -2.220446049250312588E-16, 0.000000000000000000 ) ) ;
#25 = ADVANCED_FACE ( 'NONE', ( #16 ), #216, .F. ) ;
#26 = LINE ( 'NONE', #88, #94 ) ;
#27 = LINE ( 'NONE', #153, #130 ) ;
#28 = EDGE_CURVE ( 'NONE', #171, #302, #268, .T. ) ;
#29 = VECTOR ( 'NONE', #112, 999.9999999999998863 ) ;
#30 = DIRECTION ( 'NONE',  ( 0.000000000000000000, 0.000000000000000000, -1.000000000000000000 ) ) ;
#31 = VERTEX_POINT ( 'NONE', #251 ) ;
#32 = DIRECTION ( 'NONE',  ( -0.7071067811865475727, -0.7071067811865475727, 0.000000000000000000 ) ) ;
#33 = ORIENTED_EDGE ( 'NONE', *, *, #250, .F. ) ;
#34 = PERSON_AND_ORGANIZATION ( #321, #259 ) ;
#35 = APPLICATION_PROTOCOL_DEFINITION ( 'international standard', 'config_control_design', 1994, #222 ) ;
#36 = ORIENTED_EDGE ( 'NONE', *, *, #250, .T. ) ;
#37 = APPROVAL_DATE_TIME ( #165, #285 ) ;
#38 = ORIENTED_EDGE ( 'NONE', *, *, #186, .F. ) ;
#39 = CC_DESIGN_PERSON_AND_ORGANIZATION_ASSIGNMENT ( #64, #125, ( #282 ) ) ;
#40 = CARTESIAN_POINT ( 'NONE',  ( 6.349999999999996980, 6.349999999999996980, 6.349999999999999645 ) ) ;
#41 = VECTOR ( 'NONE', #49, 1000.000000000000000 ) ;
#42 = EDGE_CURVE ( 'NONE', #284, #234, #62, .T. ) ;
#43 = UNCERTAINTY_MEASURE_WITH_UNIT (LENGTH_MEASURE( 1.000000000000000082E-05 ), #162, 'distance_accuracy_value', 'NONE');
#44 = CARTESIAN_POINT ( 'NONE',  ( -6.349999999999999645, -6.350000000000000533, -6.349999999999999645 ) ) ;
#45 = LINE ( 'NONE', #101, #41 ) ;
#46 = PRODUCT_RELATED_PRODUCT_CATEGORY ( 'detail', '', ( #319 ) ) ;
#47 = COORDINATED_UNIVERSAL_TIME_OFFSET ( 8, 0, .AHEAD. ) ;
#48 = DIRECTION ( 'NONE',  ( 1.000000000000000000, -2.903408047666378392E-16, 0.000000000000000000 ) ) ;
#49 = DIRECTION ( 'NONE',  ( 1.000000000000000000, -2.903408047666378392E-16, 0.000000000000000000 ) ) ;
#50 = EDGE_CURVE ( 'NONE', #188, #171, #27, .T. ) ;
#51 = APPROVAL_PERSON_ORGANIZATION ( #9, #111, #67 ) ;
#52 = CARTESIAN_POINT ( 'NONE',  ( -6.349999999999998757, -6.349999999999997868, 6.349999999999999645 ) ) ;
#53 = DIRECTION ( 'NONE',  ( -0.000000000000000000, 0.000000000000000000, 1.000000000000000000 ) ) ;
#54 = CALENDAR_DATE ( 2020, 22, 12 ) ;
#55 = CARTESIAN_POINT ( 'NONE',  ( 6.349999999999996980, 6.349999999999996980, 6.349999999999999645 ) ) ;
#56 = CARTESIAN_POINT ( 'NONE',  ( -6.349999999999999645, -6.350000000000000533, 6.349999999999999645 ) ) ;
#57 = AXIS2_PLACEMENT_3D ( 'NONE', #55, #175, #81 ) ;
#58 = CARTESIAN_POINT ( 'NONE',  ( -6.349999999999998757, -6.349999999999997868, 6.349999999999999645 ) ) ;
#59 = CARTESIAN_POINT ( 'NONE',  ( -6.350000000000002309, 6.350000000000001421, -6.349999999999999645 ) ) ;
#60 = DIRECTION ( 'NONE',  ( -6.829619984160658046E-17, 1.000000000000000000, -0.000000000000000000 ) ) ;
#61 = AXIS2_PLACEMENT_3D ( 'NONE', #320, #23, #105 ) ;
#62 = LINE ( 'NONE', #158, #66 ) ;
#63 = MANIFOLD_SOLID_BREP ( '¾µÏ', #244 ) ;
#64 = PERSON_AND_ORGANIZATION ( #321, #259 ) ;
#65 = EDGE_LOOP ( 'NONE', ( #99, #310, #191, #253 ) ) ;
#66 = VECTOR ( 'NONE', #136, 1000.000000000000000 ) ;
#67 = APPROVAL_ROLE ( '' ) ;
#68 = AXIS2_PLACEMENT_3D ( 'NONE', #178, #24, #151 ) ;
#69 = CALENDAR_DATE ( 2020, 22, 12 ) ;
#70 = LINE ( 'NONE', #166, #220 ) ;
#71 = EDGE_CURVE ( 'NONE', #96, #168, #4, .T. ) ;
#72 = DIRECTION ( 'NONE',  ( 1.000000000000000000, 0.000000000000000000, 0.000000000000000000 ) ) ;
#73 = VECTOR ( 'NONE', #195, 1000.000000000000000 ) ;
#74 = AXIS2_PLACEMENT_3D ( 'NONE', #131, #53, #129 ) ;
#75 = CC_DESIGN_PERSON_AND_ORGANIZATION_ASSIGNMENT ( #12, #263, ( #308 ) ) ;
#76 = PLANE ( 'NONE',  #267 ) ;
#77 =( NAMED_UNIT ( * ) PLANE_ANGLE_UNIT ( ) SI_UNIT ( $, .RADIAN. ) );
#78 = ORIENTED_EDGE ( 'NONE', *, *, #71, .T. ) ;
#79 = PLANE ( 'NONE',  #74 ) ;
#80 = APPROVAL_STATUS ( 'not_yet_approved' ) ;
#81 = DIRECTION ( 'NONE',  ( 0.7071067811865475727, 0.7071067811865475727, 0.000000000000000000 ) ) ;
#82 = DESIGN_CONTEXT ( 'detailed design', #15, 'design' ) ;
#83 = FACE_OUTER_BOUND ( 'NONE', #252, .T. ) ;
#84 = COORDINATED_UNIVERSAL_TIME_OFFSET ( 8, 0, .AHEAD. ) ;
#85 = PLANE ( 'NONE',  #114 ) ;
#86 = DIRECTION ( 'NONE',  ( -1.000000000000000000, -6.829619984160658046E-17, 0.000000000000000000 ) ) ;
#87 = DIRECTION ( 'NONE',  ( -0.000000000000000000, -0.000000000000000000, -1.000000000000000000 ) ) ;
#88 = CARTESIAN_POINT ( 'NONE',  ( -6.349999999999998757, -6.349999999999997868, 6.349999999999999645 ) ) ;
#89 = FACE_OUTER_BOUND ( 'NONE', #237, .T. ) ;
#90 = VECTOR ( 'NONE', #247, 1000.000000000000000 ) ;
#91 = AXIS2_PLACEMENT_3D ( 'NONE', #173, #254, #291 ) ;
#92 = CC_DESIGN_PERSON_AND_ORGANIZATION_ASSIGNMENT ( #209, #117, ( #104 ) ) ;
#93 = PERSON_AND_ORGANIZATION ( #321, #259 ) ;
#94 = VECTOR ( 'NONE', #30, 1000.000000000000000 ) ;
#95 = APPROVAL_STATUS ( 'not_yet_approved' ) ;
#96 = VERTEX_POINT ( 'NONE', #230 ) ;
#97 = ORIENTED_EDGE ( 'NONE', *, *, #2, .F. ) ;
#98 = ORIENTED_EDGE ( 'NONE', *, *, #176, .T. ) ;
#99 = ORIENTED_EDGE ( 'NONE', *, *, #106, .F. ) ;
#100 = DIRECTION ( 'NONE',  ( 0.000000000000000000, 0.000000000000000000, -1.000000000000000000 ) ) ;
#101 = CARTESIAN_POINT ( 'NONE',  ( 6.349999999999996980, 6.349999999999996980, -6.349999999999999645 ) ) ;
#102 = DIRECTION ( 'NONE',  ( 1.000000000000000000, 0.000000000000000000, 0.000000000000000000 ) ) ;
#103 = DIRECTION ( 'NONE',  ( 0.000000000000000000, 1.000000000000000000, 0.000000000000000000 ) ) ;
#104 = SECURITY_CLASSIFICATION ( '', '', #231 ) ;
#105 = DIRECTION ( 'NONE',  ( 1.000000000000000000, 0.000000000000000000, 0.000000000000000000 ) ) ;
#106 = EDGE_CURVE ( 'NONE', #281, #122, #275, .T. ) ;
#107 = CARTESIAN_POINT ( 'NONE',  ( 0.000000000000000000, 0.000000000000000000, 6.349999999999999645 ) ) ;
#108 = LINE ( 'NONE', #180, #29 ) ;
#109 = DIRECTION ( 'NONE',  ( -2.220446049250312588E-16, 1.000000000000000000, 0.000000000000000000 ) ) ;
#110 = CC_DESIGN_APPROVAL ( #111, ( #282 ) ) ;
#111 = APPROVAL ( #80, 'UNSPECIFIED' ) ;
#112 = DIRECTION ( 'NONE',  ( -0.7071067811865475727, -0.7071067811865475727, 0.000000000000000000 ) ) ;
#113 = ORIENTED_EDGE ( 'NONE', *, *, #179, .F. ) ;
#114 = AXIS2_PLACEMENT_3D ( 'NONE', #56, #103, #172 ) ;
#115 = APPROVAL_ROLE ( '' ) ;
#116 = DATE_AND_TIME ( #187, #3 ) ;
#117 = PERSON_AND_ORGANIZATION_ROLE ( 'classification_officer' ) ;
#118 = ORIENTED_EDGE ( 'NONE', *, *, #6, .F. ) ;
#119 = LINE ( 'NONE', #44, #163 ) ;
#120 = ORIENTED_EDGE ( 'NONE', *, *, #161, .F. ) ;
#121 = ADVANCED_FACE ( 'NONE', ( #89 ), #152, .F. ) ;
#122 = VERTEX_POINT ( 'NONE', #59 ) ;
#123 = CARTESIAN_POINT ( 'NONE',  ( 6.349999999999998757, 6.349999999999998757, 6.349999999999999645 ) ) ;
#124 = AXIS2_PLACEMENT_3D ( 'NONE', #196, #245, #17 ) ;
#125 = PERSON_AND_ORGANIZATION_ROLE ( 'creator' ) ;
#126 = FACE_OUTER_BOUND ( 'NONE', #236, .T. ) ;
#127 = PLANE ( 'NONE',  #57 ) ;
#128 = DIRECTION ( 'NONE',  ( -1.000000000000000000, 2.903408047666378392E-16, 0.000000000000000000 ) ) ;
#129 = DIRECTION ( 'NONE',  ( 1.000000000000000000, 0.000000000000000000, 0.000000000000000000 ) ) ;
#130 = VECTOR ( 'NONE', #32, 999.9999999999998863 ) ;
#131 = CARTESIAN_POINT ( 'NONE',  ( 0.000000000000000000, 0.000000000000000000, -6.349999999999999645 ) ) ;
#132 = LINE ( 'NONE', #225, #167 ) ;
#133 = DIRECTION ( 'NONE',  ( -0.000000000000000000, -0.000000000000000000, -1.000000000000000000 ) ) ;
#134 = CARTESIAN_POINT ( 'NONE',  ( 6.349999999999999645, -6.350000000000000533, 6.349999999999999645 ) ) ;
#135 = LOCAL_TIME ( 11, 11, 43.00000000000000000, #47 ) ;
#136 = DIRECTION ( 'NONE',  ( -0.000000000000000000, -0.000000000000000000, -1.000000000000000000 ) ) ;
#137 = CALENDAR_DATE ( 2020, 22, 12 ) ;
#138 = MECHANICAL_CONTEXT ( 'NONE', #222, 'mechanical' ) ;
#139 = ORIENTED_EDGE ( 'NONE', *, *, #50, .T. ) ;
#140 = PERSON_AND_ORGANIZATION_ROLE ( 'creator' ) ;
#141 = LOCAL_TIME ( 11, 11, 43.00000000000000000, #84 ) ;
#142 = ORIENTED_EDGE ( 'NONE', *, *, #42, .T. ) ;
#143 = PLANE ( 'NONE',  #68 ) ;
#144 =( NAMED_UNIT ( * ) SI_UNIT ( $, .STERADIAN. ) SOLID_ANGLE_UNIT ( ) );
#145 = DIRECTION ( 'NONE',  ( -2.903408047666378392E-16, -1.000000000000000000, 0.000000000000000000 ) ) ;
#146 = CARTESIAN_POINT ( 'NONE',  ( -6.350000000000002309, 6.350000000000001421, 6.349999999999999645 ) ) ;
#147 = VECTOR ( 'NONE', #102, 1000.000000000000000 ) ;
#148 = CARTESIAN_POINT ( 'NONE',  ( -6.349999999999999645, -6.350000000000000533, 6.349999999999999645 ) ) ;
#149 = PRODUCT_DEFINITION_SHAPE ( 'NONE', 'NONE',  #282 ) ;
#150 = CARTESIAN_POINT ( 'NONE',  ( 6.349999999999998757, 6.349999999999998757, 6.349999999999999645 ) ) ;
#151 = DIRECTION ( 'NONE',  ( 0.000000000000000000, 0.000000000000000000, 1.000000000000000000 ) ) ;
#152 = PLANE ( 'NONE',  #303 ) ;
#153 = CARTESIAN_POINT ( 'NONE',  ( 6.349999999999996980, 6.349999999999996980, 6.349999999999999645 ) ) ;
#154 = ORIENTED_EDGE ( 'NONE', *, *, #249, .F. ) ;
#155 = EDGE_CURVE ( 'NONE', #171, #281, #26, .T. ) ;
#156 = VECTOR ( 'NONE', #238, 1000.000000000000114 ) ;
#157 = EDGE_CURVE ( 'NONE', #31, #281, #108, .T. ) ;
#158 = CARTESIAN_POINT ( 'NONE',  ( -6.349999999999999645, -6.350000000000000533, 6.349999999999999645 ) ) ;
#159 = ORIENTED_EDGE ( 'NONE', *, *, #71, .F. ) ;
#160 = ORIENTED_EDGE ( 'NONE', *, *, #11, .T. ) ;
#161 = EDGE_CURVE ( 'NONE', #185, #289, #277, .T. ) ;
#162 =( LENGTH_UNIT ( ) NAMED_UNIT ( * ) SI_UNIT ( .MILLI., .METRE. ) );
#163 = VECTOR ( 'NONE', #72, 1000.000000000000000 ) ;
#164 =( GEOMETRIC_REPRESENTATION_CONTEXT ( 3 ) GLOBAL_UNCERTAINTY_ASSIGNED_CONTEXT ( ( #43 ) ) GLOBAL_UNIT_ASSIGNED_CONTEXT ( ( #162, #77, #144 ) ) REPRESENTATION_CONTEXT ( 'NONE', 'WORKASPACE' ) );
#165 = DATE_AND_TIME ( #305, #241 ) ;
#166 = CARTESIAN_POINT ( 'NONE',  ( 6.349999999999996980, 6.349999999999996980, 6.349999999999999645 ) ) ;
#167 = VECTOR ( 'NONE', #87, 1000.000000000000000 ) ;
#168 = VERTEX_POINT ( 'NONE', #207 ) ;
#169 = CARTESIAN_POINT ( 'NONE',  ( -6.349999999999999645, -6.350000000000000533, -6.349999999999999645 ) ) ;
#170 = APPLICATION_PROTOCOL_DEFINITION ( 'international standard', 'config_control_design', 1994, #15 ) ;
#171 = VERTEX_POINT ( 'NONE', #58 ) ;
#172 = DIRECTION ( 'NONE',  ( 0.000000000000000000, -0.000000000000000000, 1.000000000000000000 ) ) ;
#173 = CARTESIAN_POINT ( 'NONE',  ( 0.000000000000000000, 0.000000000000000000, 0.000000000000000000 ) ) ;
#174 = VECTOR ( 'NONE', #182, 1000.000000000000000 ) ;
#175 = DIRECTION ( 'NONE',  ( -0.7071067811865475727, 0.7071067811865475727, 0.000000000000000000 ) ) ;
#176 = EDGE_CURVE ( 'NONE', #289, #168, #132, .T. ) ;
#177 = CARTESIAN_POINT ( 'NONE',  ( -6.349999999999999645, -6.350000000000000533, 6.349999999999999645 ) ) ;
#178 = CARTESIAN_POINT ( 'NONE',  ( -6.349999999999998757, -6.349999999999997868, 6.349999999999999645 ) ) ;
#179 = EDGE_CURVE ( 'NONE', #185, #96, #248, .T. ) ;
#180 = CARTESIAN_POINT ( 'NONE',  ( 6.349999999999996980, 6.349999999999996980, -6.349999999999999645 ) ) ;
#181 = DIRECTION ( 'NONE',  ( 6.829619984160658046E-17, -1.000000000000000000, 0.000000000000000000 ) ) ;
#182 = DIRECTION ( 'NONE',  ( -2.220446049250312588E-16, 1.000000000000000000, 0.000000000000000000 ) ) ;
#183 = ORIENTED_EDGE ( 'NONE', *, *, #176, .F. ) ;
#184 = CARTESIAN_POINT ( 'NONE',  ( 6.349999999999998757, 6.349999999999998757, 6.349999999999999645 ) ) ;
#185 = VERTEX_POINT ( 'NONE', #226 ) ;
#186 = EDGE_CURVE ( 'NONE', #302, #122, #205, .T. ) ;
#187 = CALENDAR_DATE ( 2020, 22, 12 ) ;
#188 = VERTEX_POINT ( 'NONE', #218 ) ;
#189 = ORIENTED_EDGE ( 'NONE', *, *, #293, .F. ) ;
#190 = LOCAL_TIME ( 11, 11, 43.00000000000000000, #266 ) ;
#191 = ORIENTED_EDGE ( 'NONE', *, *, #28, .T. ) ;
#192 = ORIENTED_EDGE ( 'NONE', *, *, #249, .T. ) ;
#193 = EDGE_LOOP ( 'NONE', ( #311, #38, #233, #276 ) ) ;
#194 = ORIENTED_EDGE ( 'NONE', *, *, #50, .F. ) ;
#195 = DIRECTION ( 'NONE',  ( 0.000000000000000000, 0.000000000000000000, -1.000000000000000000 ) ) ;
#196 = CARTESIAN_POINT ( 'NONE',  ( 6.349999999999998757, 6.349999999999998757, 6.349999999999999645 ) ) ;
#197 = ADVANCED_FACE ( 'NONE', ( #315 ), #85, .F. ) ;
#198 = DATE_AND_TIME ( #54, #141 ) ;
#199 = AXIS2_PLACEMENT_3D ( 'NONE', #242, #221, #224 ) ;
#200 = FACE_OUTER_BOUND ( 'NONE', #7, .T. ) ;
#201 = LINE ( 'NONE', #150, #270 ) ;
#202 = APPROVAL_ROLE ( '' ) ;
#203 = CC_DESIGN_DATE_AND_TIME_ASSIGNMENT ( #116, #318, ( #104 ) ) ;
#204 = CC_DESIGN_APPROVAL ( #215, ( #104 ) ) ;
#205 = LINE ( 'NONE', #228, #73 ) ;
#206 = EDGE_LOOP ( 'NONE', ( #160, #113, #154, #142 ) ) ;
#207 = CARTESIAN_POINT ( 'NONE',  ( 6.349999999999998757, 6.349999999999998757, -6.349999999999999645 ) ) ;
#208 = VECTOR ( 'NONE', #133, 1000.000000000000000 ) ;
#209 = PERSON_AND_ORGANIZATION ( #321, #259 ) ;
#210 = ADVANCED_BREP_SHAPE_REPRESENTATION ( 'BK7-LPBSC-12.7-532', ( #261, #63, #91 ), #164 ) ;
#211 = VECTOR ( 'NONE', #60, 1000.000000000000000 ) ;
#212 = ORIENTED_EDGE ( 'NONE', *, *, #42, .F. ) ;
#213 = ORIENTED_EDGE ( 'NONE', *, *, #179, .T. ) ;
#214 = ADVANCED_FACE ( 'NONE', ( #290 ), #127, .F. ) ;
#215 = APPROVAL ( #246, 'UNSPECIFIED' ) ;
#216 = PLANE ( 'NONE',  #18 ) ;
#217 = DIRECTION ( 'NONE',  ( -2.220446049250312588E-16, 1.000000000000000000, 0.000000000000000000 ) ) ;
#218 = CARTESIAN_POINT ( 'NONE',  ( 6.349999999999996980, 6.349999999999996980, 6.349999999999999645 ) ) ;
#219 = LINE ( 'NONE', #177, #147 ) ;
#220 = VECTOR ( 'NONE', #100, 1000.000000000000000 ) ;
#221 = DIRECTION ( 'NONE',  ( 0.000000000000000000, 0.000000000000000000, 1.000000000000000000 ) ) ;
#222 = APPLICATION_CONTEXT ( 'configuration controlled 3d designs of mechanical parts and assemblies' ) ;
#223 = APPROVAL_DATE_TIME ( #198, #215 ) ;
#224 = DIRECTION ( 'NONE',  ( -2.220446049250312588E-16, 1.000000000000000000, 0.000000000000000000 ) ) ;
#225 = CARTESIAN_POINT ( 'NONE',  ( 6.349999999999998757, 6.349999999999998757, 6.349999999999999645 ) ) ;
#226 = CARTESIAN_POINT ( 'NONE',  ( 6.349999999999999645, -6.350000000000000533, 6.349999999999999645 ) ) ;
#227 = VECTOR ( 'NONE', #109, 1000.000000000000000 ) ;
#228 = CARTESIAN_POINT ( 'NONE',  ( -6.350000000000002309, 6.350000000000001421, 6.349999999999999645 ) ) ;
#229 = ORIENTED_EDGE ( 'NONE', *, *, #157, .F. ) ;
#230 = CARTESIAN_POINT ( 'NONE',  ( 6.349999999999999645, -6.350000000000000533, -6.349999999999999645 ) ) ;
#231 = SECURITY_CLASSIFICATION_LEVEL ( 'unclassified' ) ;
#232 = EDGE_CURVE ( 'NONE', #122, #31, #45, .T. ) ;
#233 = ORIENTED_EDGE ( 'NONE', *, *, #6, .T. ) ;
#234 = VERTEX_POINT ( 'NONE', #169 ) ;
#235 = APPROVAL_PERSON_ORGANIZATION ( #34, #285, #115 ) ;
#236 = EDGE_LOOP ( 'NONE', ( #36, #212, #189, #98 ) ) ;
#237 = EDGE_LOOP ( 'NONE', ( #78, #183, #120, #213 ) ) ;
#238 = DIRECTION ( 'NONE',  ( -0.7071067811865474617, -0.7071067811865474617, 0.000000000000000000 ) ) ;
#239 = CARTESIAN_POINT ( 'NONE',  ( 6.349999999999996980, 6.349999999999996980, 6.349999999999999645 ) ) ;
#240 = PLANE ( 'NONE',  #124 ) ;
#241 = LOCAL_TIME ( 11, 11, 43.00000000000000000, #314 ) ;
#242 = CARTESIAN_POINT ( 'NONE',  ( 0.000000000000000000, 0.000000000000000000, -6.349999999999999645 ) ) ;
#243 = DIRECTION ( 'NONE',  ( -0.7071067811865474617, -0.7071067811865474617, 0.000000000000000000 ) ) ;
#244 = CLOSED_SHELL ( 'NONE', ( #214, #256, #25, #301, #287 ) ) ;
#245 = DIRECTION ( 'NONE',  ( 0.7071067811865475727, -0.7071067811865475727, 0.000000000000000000 ) ) ;
#246 = APPROVAL_STATUS ( 'not_yet_approved' ) ;
#247 = DIRECTION ( 'NONE',  ( -6.829619984160658046E-17, 1.000000000000000000, -0.000000000000000000 ) ) ;
#248 = LINE ( 'NONE', #134, #208 ) ;
#249 = EDGE_CURVE ( 'NONE', #284, #185, #219, .T. ) ;
#250 = EDGE_CURVE ( 'NONE', #168, #234, #265, .T. ) ;
#251 = CARTESIAN_POINT ( 'NONE',  ( 6.349999999999996980, 6.349999999999996980, -6.349999999999999645 ) ) ;
#252 = EDGE_LOOP ( 'NONE', ( #300, #286, #313 ) ) ;
#253 = ORIENTED_EDGE ( 'NONE', *, *, #186, .T. ) ;
#254 = DIRECTION ( 'NONE',  ( 0.000000000000000000, 0.000000000000000000, 1.000000000000000000 ) ) ;
#255 = ORIENTED_EDGE ( 'NONE', *, *, #155, .T. ) ;
#256 = ADVANCED_FACE ( 'NONE', ( #317 ), #143, .F. ) ;
#257 = PERSON_AND_ORGANIZATION_ROLE ( 'design_owner' ) ;
#258 = LINE ( 'NONE', #40, #307 ) ;
#259 = ORGANIZATION ( 'UNSPECIFIED', 'UNSPECIFIED', '' ) ;
#260 = ORIENTED_EDGE ( 'NONE', *, *, #11, .F. ) ;
#261 = MANIFOLD_SOLID_BREP ( 'Í¹Ì¨-À', #312 ) ;
#262 = PLANE ( 'NONE',  #61 ) ;
#263 = PERSON_AND_ORGANIZATION_ROLE ( 'design_supplier' ) ;
#264 = ORIENTED_EDGE ( 'NONE', *, *, #161, .T. ) ;
#265 = LINE ( 'NONE', #21, #156 ) ;
#266 = COORDINATED_UNIVERSAL_TIME_OFFSET ( 8, 0, .AHEAD. ) ;
#267 = AXIS2_PLACEMENT_3D ( 'NONE', #107, #294, #217 ) ;
#268 = LINE ( 'NONE', #52, #174 ) ;
#269 = FACE_OUTER_BOUND ( 'NONE', #10, .T. ) ;
#270 = VECTOR ( 'NONE', #243, 1000.000000000000114 ) ;
#271 = PLANE ( 'NONE',  #199 ) ;
#272 = CC_DESIGN_PERSON_AND_ORGANIZATION_ASSIGNMENT ( #93, #257, ( #319 ) ) ;
#273 = CARTESIAN_POINT ( 'NONE',  ( 6.349999999999998757, 6.349999999999998757, 6.349999999999999645 ) ) ;
#274 = ADVANCED_FACE ( 'NONE', ( #126 ), #240, .F. ) ;
#275 = LINE ( 'NONE', #297, #227 ) ;
#276 = ORIENTED_EDGE ( 'NONE', *, *, #2, .T. ) ;
#277 = LINE ( 'NONE', #273, #211 ) ;
#278 = APPROVAL_PERSON_ORGANIZATION ( #316, #215, #202 ) ;
#279 = CC_DESIGN_APPROVAL ( #285, ( #308 ) ) ;
#280 = DATE_AND_TIME ( #69, #190 ) ;
#281 = VERTEX_POINT ( 'NONE', #292 ) ;
#282 = PRODUCT_DEFINITION ( 'UNKNOWN', '', #308, #82 ) ;
#283 = ADVANCED_FACE ( 'NONE', ( #269 ), #79, .F. ) ;
#284 = VERTEX_POINT ( 'NONE', #148 ) ;
#285 = APPROVAL ( #95, 'UNSPECIFIED' ) ;
#286 = ORIENTED_EDGE ( 'NONE', *, *, #106, .T. ) ;
#287 = ADVANCED_FACE ( 'NONE', ( #83 ), #271, .F. ) ;
#288 = EDGE_LOOP ( 'NONE', ( #13, #192, #264 ) ) ;
#289 = VERTEX_POINT ( 'NONE', #123 ) ;
#290 = FACE_OUTER_BOUND ( 'NONE', #5, .T. ) ;
#291 = DIRECTION ( 'NONE',  ( 1.000000000000000000, 0.000000000000000000, 0.000000000000000000 ) ) ;
#292 = CARTESIAN_POINT ( 'NONE',  ( -6.349999999999998757, -6.349999999999997868, -6.349999999999999645 ) ) ;
#293 = EDGE_CURVE ( 'NONE', #289, #284, #201, .T. ) ;
#294 = DIRECTION ( 'NONE',  ( 0.000000000000000000, 0.000000000000000000, 1.000000000000000000 ) ) ;
#295 = CC_DESIGN_PERSON_AND_ORGANIZATION_ASSIGNMENT ( #20, #140, ( #308 ) ) ;
#296 = ADVANCED_FACE ( 'NONE', ( #22 ), #262, .T. ) ;
#297 = CARTESIAN_POINT ( 'NONE',  ( -6.349999999999998757, -6.349999999999997868, -6.349999999999999645 ) ) ;
#298 = CARTESIAN_POINT ( 'NONE',  ( 6.349999999999998757, 6.349999999999998757, -6.349999999999999645 ) ) ;
#299 = CC_DESIGN_DATE_AND_TIME_ASSIGNMENT ( #280, #8, ( #282 ) ) ;
#300 = ORIENTED_EDGE ( 'NONE', *, *, #157, .T. ) ;
#301 = ADVANCED_FACE ( 'NONE', ( #200 ), #76, .T. ) ;
#302 = VERTEX_POINT ( 'NONE', #146 ) ;
#303 = AXIS2_PLACEMENT_3D ( 'NONE', #184, #86, #181 ) ;
#304 = COORDINATED_UNIVERSAL_TIME_OFFSET ( 8, 0, .AHEAD. ) ;
#305 = CALENDAR_DATE ( 2020, 22, 12 ) ;
#306 = DATE_AND_TIME ( #137, #135 ) ;
#307 = VECTOR ( 'NONE', #48, 1000.000000000000000 ) ;
#308 = PRODUCT_DEFINITION_FORMATION_WITH_SPECIFIED_SOURCE ( 'ANY', '', #319, .NOT_KNOWN. ) ;
#309 = APPROVAL_DATE_TIME ( #306, #111 ) ;
#310 = ORIENTED_EDGE ( 'NONE', *, *, #155, .F. ) ;
#311 = ORIENTED_EDGE ( 'NONE', *, *, #232, .F. ) ;
#312 = CLOSED_SHELL ( 'NONE', ( #274, #197, #121, #296, #283 ) ) ;
#313 = ORIENTED_EDGE ( 'NONE', *, *, #232, .T. ) ;
#314 = COORDINATED_UNIVERSAL_TIME_OFFSET ( 8, 0, .AHEAD. ) ;
#315 = FACE_OUTER_BOUND ( 'NONE', #206, .T. ) ;
#316 = PERSON_AND_ORGANIZATION ( #321, #259 ) ;
#317 = FACE_OUTER_BOUND ( 'NONE', #65, .T. ) ;
#318 = DATE_TIME_ROLE ( 'classification_date' ) ;
#319 = PRODUCT ( 'BK7-LPBSC-12.7-532', 'BK7-LPBSC-12.7-532', '', ( #138 ) ) ;
#320 = CARTESIAN_POINT ( 'NONE',  ( 0.000000000000000000, 0.000000000000000000, 6.349999999999999645 ) ) ;
#321 = PERSON ( 'UNSPECIFIED', 'UNSPECIFIED', 'UNSPECIFIED', ('UNSPECIFIED'), ('UNSPECIFIED'), ('UNSPECIFIED') ) ;
ENDSEC;
END-ISO-10303-21;
